ISO-10303-21;
HEADER;
FILE_DESCRIPTION( ( 'Unknown' ), '1' );
FILE_NAME( 'D:/VADIM/LECHES/FocusingRing1.stp', 'Unknown', ( 'Unknown' ), ( 'Unknown' ), 'XStep 1.0', 'Unknown', '  ' );
FILE_SCHEMA( ( 'CONFIG_CONTROL_DESIGN' ) );
ENDSEC;
DATA;
#1 = DESIGN_CONTEXT( '', #27, 'design' );
#2 = APPLICATION_PROTOCOL_DEFINITION( 'INTERNATIONAL STANDARD', 'config_control_design', 1994, #27 );
#3 = PRODUCT_CATEGORY_RELATIONSHIP( 'NONE', 'NONE', #28, #29 );
#4 = DATE_AND_TIME( #30, #31 );
#5 = DATE_TIME_ROLE( 'creation_date' );
#6 = DATE_TIME_ROLE( 'classification_date' );
#7 = PERSON_AND_ORGANIZATION_ROLE( 'creator' );
#8 = PERSON_AND_ORGANIZATION_ROLE( 'design_supplier' );
#9 = PERSON_AND_ORGANIZATION_ROLE( 'classification_officer' );
#10 = PERSON_AND_ORGANIZATION_ROLE( 'design_owner' );
#11 = APPROVAL_PERSON_ORGANIZATION( #32, #33, #34 );
#12 = APPROVAL_DATE_TIME( #4, #33 );
#13 = CC_DESIGN_APPROVAL( #33, ( #35, #36, #37 ) );
#14 = CC_DESIGN_DATE_AND_TIME_ASSIGNMENT( #4, #5, ( #37 ) );
#15 = CC_DESIGN_DATE_AND_TIME_ASSIGNMENT( #4, #6, ( #35 ) );
#16 = CC_DESIGN_PERSON_AND_ORGANIZATION_ASSIGNMENT( #32, #10, ( #38 ) );
#17 = CC_DESIGN_PERSON_AND_ORGANIZATION_ASSIGNMENT( #32, #7, ( #37 ) );
#18 = CC_DESIGN_PERSON_AND_ORGANIZATION_ASSIGNMENT( #32, #7, ( #36 ) );
#19 = CC_DESIGN_PERSON_AND_ORGANIZATION_ASSIGNMENT( #32, #8, ( #36 ) );
#20 = CC_DESIGN_SECURITY_CLASSIFICATION( #35, ( #36 ) );
#21 = CC_DESIGN_PERSON_AND_ORGANIZATION_ASSIGNMENT( #32, #9, ( #35 ) );
#22 = SHAPE_DEFINITION_REPRESENTATION( #39, #40 );
#23 =  ( GEOMETRIC_REPRESENTATION_CONTEXT( 3 )GLOBAL_UNCERTAINTY_ASSIGNED_CONTEXT( ( #43 ) )GLOBAL_UNIT_ASSIGNED_CONTEXT( ( #45, #46, #47 ) )REPRESENTATION_CONTEXT( 'NONE', 'WORKSPACE' ) );
#27 = APPLICATION_CONTEXT( 'CONFIGURATION CONTROLLED 3D DESIGNS OF MECHANICAL PARTS AND ASSEMBLIES' );
#28 = PRODUCT_CATEGORY( 'part', 'NONE' );
#29 = PRODUCT_RELATED_PRODUCT_CATEGORY( 'detail', ' ', ( #38 ) );
#30 = CALENDAR_DATE( 2014, 28, 9 );
#31 = LOCAL_TIME( 20, 13, 33.0000000000000, #49 );
#32 = PERSON_AND_ORGANIZATION( #50, #51 );
#33 = APPROVAL( #52, 'SOLID MODEL' );
#34 = APPROVAL_ROLE( 'APPROVED' );
#35 = SECURITY_CLASSIFICATION( '', '', #53 );
#36 = PRODUCT_DEFINITION_FORMATION_WITH_SPECIFIED_SOURCE( ' ', 'NONE', #38, .NOT_KNOWN. );
#37 = PRODUCT_DEFINITION( 'NONE', 'NONE', #36, #1 );
#38 = PRODUCT( '1', '1', 'PART-1-DESC', ( #54 ) );
#39 = PRODUCT_DEFINITION_SHAPE( 'NONE', 'NONE', #37 );
#40 = ADVANCED_BREP_SHAPE_REPRESENTATION( '1', ( #55, #56 ), #23 );
#43 = UNCERTAINTY_MEASURE_WITH_UNIT( LENGTH_MEASURE( 0.00100000000000000 ), #45, '', '' );
#45 =  ( CONVERSION_BASED_UNIT( 'MILLIMETRE', #59 )LENGTH_UNIT(  )NAMED_UNIT( #62 ) );
#46 =  ( NAMED_UNIT( #64 )PLANE_ANGLE_UNIT(  )SI_UNIT( $, .RADIAN. ) );
#47 =  ( NAMED_UNIT( #64 )SOLID_ANGLE_UNIT(  )SI_UNIT( $, .STERADIAN. ) );
#49 = COORDINATED_UNIVERSAL_TIME_OFFSET( 1, 0, .AHEAD. );
#50 = PERSON( '', 'UNSPECIFIED', $, $, $, $ );
#51 = ORGANIZATION( 'UNSPECIFIED', 'UNSPECIFIED', 'UNSPECIFIED' );
#52 = APPROVAL_STATUS( 'approved' );
#53 = SECURITY_CLASSIFICATION_LEVEL( 'unclassified' );
#54 = MECHANICAL_CONTEXT( '', #27, 'mechanical' );
#55 = MANIFOLD_SOLID_BREP( '1', #70 );
#56 = AXIS2_PLACEMENT_3D( '', #71, #72, #73 );
#59 = LENGTH_MEASURE_WITH_UNIT( LENGTH_MEASURE( 1.00000000000000 ), #74 );
#62 = DIMENSIONAL_EXPONENTS( 1.00000000000000, 0.000000000000000, 0.000000000000000, 0.000000000000000, 0.000000000000000, 0.000000000000000, 0.000000000000000 );
#64 = DIMENSIONAL_EXPONENTS( 0.000000000000000, 0.000000000000000, 0.000000000000000, 0.000000000000000, 0.000000000000000, 0.000000000000000, 0.000000000000000 );
#70 = CLOSED_SHELL( '', ( #75, #76, #77, #78, #79, #80, #81, #82, #83, #84, #85, #86, #87, #88 ) );
#71 = CARTESIAN_POINT( '', ( 0.000000000000000, 0.000000000000000, 0.000000000000000 ) );
#72 = DIRECTION( '', ( 0.000000000000000, 0.000000000000000, 1.00000000000000 ) );
#73 = DIRECTION( '', ( 1.00000000000000, 0.000000000000000, 0.000000000000000 ) );
#74 =  ( NAMED_UNIT( #62 )LENGTH_UNIT(  )SI_UNIT( .MILLI., .METRE. ) );
#75 = ADVANCED_FACE( '', ( #90 ), #91, .F. );
#76 = ADVANCED_FACE( '', ( #92 ), #93, .T. );
#77 = ADVANCED_FACE( '', ( #94 ), #95, .F. );
#78 = ADVANCED_FACE( '', ( #96, #97, #98, #99 ), #100, .F. );
#79 = ADVANCED_FACE( '', ( #101, #102 ), #103, .T. );
#80 = ADVANCED_FACE( '', ( #104 ), #105, .T. );
#81 = ADVANCED_FACE( '', ( #106 ), #107, .F. );
#82 = ADVANCED_FACE( '', ( #108, #109 ), #110, .T. );
#83 = ADVANCED_FACE( '', ( #111, #112, #113, #114 ), #115, .F. );
#84 = ADVANCED_FACE( '', ( #116, #117 ), #118, .F. );
#85 = ADVANCED_FACE( '', ( #119 ), #120, .T. );
#86 = ADVANCED_FACE( '', ( #121, #122 ), #123, .F. );
#87 = ADVANCED_FACE( '', ( #124, #125 ), #126, .F. );
#88 = ADVANCED_FACE( '', ( #127, #128 ), #129, .F. );
#90 = FACE_OUTER_BOUND( '', #130, .T. );
#91 = PLANE( '', #131 );
#92 = FACE_OUTER_BOUND( '', #132, .T. );
#93 = CYLINDRICAL_SURFACE( '', #133, 61.8200000000000 );
#94 = FACE_OUTER_BOUND( '', #134, .T. );
#95 = CYLINDRICAL_SURFACE( '', #135, 56.8200000000000 );
#96 = FACE_BOUND( '', #136, .T. );
#97 = FACE_BOUND( '', #137, .T. );
#98 = FACE_BOUND( '', #138, .T. );
#99 = FACE_OUTER_BOUND( '', #139, .T. );
#100 = PLANE( '', #140 );
#101 = FACE_BOUND( '', #141, .T. );
#102 = FACE_OUTER_BOUND( '', #142, .T. );
#103 = PLANE( '', #143 );
#104 = FACE_OUTER_BOUND( '', #144, .T. );
#105 = PLANE( '', #145 );
#106 = FACE_OUTER_BOUND( '', #146, .T. );
#107 = PLANE( '', #147 );
#108 = FACE_BOUND( '', #148, .T. );
#109 = FACE_OUTER_BOUND( '', #149, .T. );
#110 = PLANE( '', #150 );
#111 = FACE_BOUND( '', #151, .T. );
#112 = FACE_BOUND( '', #152, .T. );
#113 = FACE_BOUND( '', #153, .T. );
#114 = FACE_OUTER_BOUND( '', #154, .T. );
#115 = PLANE( '', #155 );
#116 = FACE_OUTER_BOUND( '', #156, .T. );
#117 = FACE_OUTER_BOUND( '', #157, .T. );
#118 = CYLINDRICAL_SURFACE( '', #158, 2.50000000000000 );
#119 = FACE_OUTER_BOUND( '', #159, .T. );
#120 = PLANE( '', #160 );
#121 = FACE_OUTER_BOUND( '', #161, .T. );
#122 = FACE_OUTER_BOUND( '', #162, .T. );
#123 = CYLINDRICAL_SURFACE( '', #163, 2.50000000000000 );
#124 = FACE_OUTER_BOUND( '', #164, .T. );
#125 = FACE_OUTER_BOUND( '', #165, .T. );
#126 = CYLINDRICAL_SURFACE( '', #166, 2.50000000000000 );
#127 = FACE_OUTER_BOUND( '', #167, .T. );
#128 = FACE_OUTER_BOUND( '', #168, .T. );
#129 = CYLINDRICAL_SURFACE( '', #169, 2.50000000000000 );
#130 = EDGE_LOOP( '', ( #170, #171, #172, #173, #174, #175, #176, #177 ) );
#131 = AXIS2_PLACEMENT_3D( '', #178, #179, #180 );
#132 = EDGE_LOOP( '', ( #181, #182, #183, #184 ) );
#133 = AXIS2_PLACEMENT_3D( '', #185, #186, #187 );
#134 = EDGE_LOOP( '', ( #188, #189, #190, #191 ) );
#135 = AXIS2_PLACEMENT_3D( '', #192, #193, #194 );
#136 = EDGE_LOOP( '', ( #195 ) );
#137 = EDGE_LOOP( '', ( #196 ) );
#138 = EDGE_LOOP( '', ( #197 ) );
#139 = EDGE_LOOP( '', ( #198, #199, #200, #201 ) );
#140 = AXIS2_PLACEMENT_3D( '', #202, #203, #204 );
#141 = EDGE_LOOP( '', ( #205 ) );
#142 = EDGE_LOOP( '', ( #206, #207, #208, #209 ) );
#143 = AXIS2_PLACEMENT_3D( '', #210, #211, #212 );
#144 = EDGE_LOOP( '', ( #213, #214, #215, #216, #217, #218, #219, #220 ) );
#145 = AXIS2_PLACEMENT_3D( '', #221, #222, #223 );
#146 = EDGE_LOOP( '', ( #224, #225, #226, #227 ) );
#147 = AXIS2_PLACEMENT_3D( '', #228, #229, #230 );
#148 = EDGE_LOOP( '', ( #231 ) );
#149 = EDGE_LOOP( '', ( #232, #233, #234, #235 ) );
#150 = AXIS2_PLACEMENT_3D( '', #236, #237, #238 );
#151 = EDGE_LOOP( '', ( #239 ) );
#152 = EDGE_LOOP( '', ( #240 ) );
#153 = EDGE_LOOP( '', ( #241 ) );
#154 = EDGE_LOOP( '', ( #242, #243, #244, #245 ) );
#155 = AXIS2_PLACEMENT_3D( '', #246, #247, #248 );
#156 = EDGE_LOOP( '', ( #249 ) );
#157 = EDGE_LOOP( '', ( #250 ) );
#158 = AXIS2_PLACEMENT_3D( '', #251, #252, #253 );
#159 = EDGE_LOOP( '', ( #254, #255, #256, #257 ) );
#160 = AXIS2_PLACEMENT_3D( '', #258, #259, #260 );
#161 = EDGE_LOOP( '', ( #261 ) );
#162 = EDGE_LOOP( '', ( #262 ) );
#163 = AXIS2_PLACEMENT_3D( '', #263, #264, #265 );
#164 = EDGE_LOOP( '', ( #266 ) );
#165 = EDGE_LOOP( '', ( #267 ) );
#166 = AXIS2_PLACEMENT_3D( '', #268, #269, #270 );
#167 = EDGE_LOOP( '', ( #271 ) );
#168 = EDGE_LOOP( '', ( #272 ) );
#169 = AXIS2_PLACEMENT_3D( '', #273, #274, #275 );
#170 = ORIENTED_EDGE( '', *, *, #276, .T. );
#171 = ORIENTED_EDGE( '', *, *, #277, .T. );
#172 = ORIENTED_EDGE( '', *, *, #278, .F. );
#173 = ORIENTED_EDGE( '', *, *, #279, .T. );
#174 = ORIENTED_EDGE( '', *, *, #280, .T. );
#175 = ORIENTED_EDGE( '', *, *, #281, .F. );
#176 = ORIENTED_EDGE( '', *, *, #282, .F. );
#177 = ORIENTED_EDGE( '', *, *, #283, .F. );
#178 = CARTESIAN_POINT( '', ( 3.30643715532042E-015, 0.000000000000000, 15.0000000000000 ) );
#179 = DIRECTION( '', ( 0.000000000000000, 0.000000000000000, -1.00000000000000 ) );
#180 = DIRECTION( '', ( -1.00000000000000, 0.000000000000000, 0.000000000000000 ) );
#181 = ORIENTED_EDGE( '', *, *, #281, .T. );
#182 = ORIENTED_EDGE( '', *, *, #284, .T. );
#183 = ORIENTED_EDGE( '', *, *, #285, .F. );
#184 = ORIENTED_EDGE( '', *, *, #286, .T. );
#185 = CARTESIAN_POINT( '', ( 3.30643715532042E-015, 0.000000000000000, 15.0000000000000 ) );
#186 = DIRECTION( '', ( 0.000000000000000, 0.000000000000000, 1.00000000000000 ) );
#187 = DIRECTION( '', ( -1.00000000000000, 0.000000000000000, 0.000000000000000 ) );
#188 = ORIENTED_EDGE( '', *, *, #287, .T. );
#189 = ORIENTED_EDGE( '', *, *, #288, .F. );
#190 = ORIENTED_EDGE( '', *, *, #277, .F. );
#191 = ORIENTED_EDGE( '', *, *, #289, .T. );
#192 = CARTESIAN_POINT( '', ( 0.000000000000000, 0.000000000000000, 15.0000000000000 ) );
#193 = DIRECTION( '', ( 0.000000000000000, 0.000000000000000, 1.00000000000000 ) );
#194 = DIRECTION( '', ( -1.00000000000000, 0.000000000000000, 0.000000000000000 ) );
#195 = ORIENTED_EDGE( '', *, *, #290, .T. );
#196 = ORIENTED_EDGE( '', *, *, #291, .T. );
#197 = ORIENTED_EDGE( '', *, *, #292, .T. );
#198 = ORIENTED_EDGE( '', *, *, #289, .F. );
#199 = ORIENTED_EDGE( '', *, *, #276, .F. );
#200 = ORIENTED_EDGE( '', *, *, #293, .F. );
#201 = ORIENTED_EDGE( '', *, *, #294, .T. );
#202 = CARTESIAN_POINT( '', ( 1.49999999999314, 116.446987519264, -8.67361737988404E-016 ) );
#203 = DIRECTION( '', ( 1.00000000000000, -1.02695629777827E-013, 0.000000000000000 ) );
#204 = DIRECTION( '', ( 1.02695629777827E-013, 1.00000000000000, 0.000000000000000 ) );
#205 = ORIENTED_EDGE( '', *, *, #295, .F. );
#206 = ORIENTED_EDGE( '', *, *, #278, .T. );
#207 = ORIENTED_EDGE( '', *, *, #288, .T. );
#208 = ORIENTED_EDGE( '', *, *, #296, .F. );
#209 = ORIENTED_EDGE( '', *, *, #297, .T. );
#210 = CARTESIAN_POINT( '', ( -1.49999999999795, 81.4469875192640, 0.000000000000000 ) );
#211 = DIRECTION( '', ( 1.00000000000000, -1.03289218862797E-013, 0.000000000000000 ) );
#212 = DIRECTION( '', ( 1.03289218862797E-013, 1.00000000000000, 0.000000000000000 ) );
#213 = ORIENTED_EDGE( '', *, *, #287, .F. );
#214 = ORIENTED_EDGE( '', *, *, #294, .F. );
#215 = ORIENTED_EDGE( '', *, *, #298, .F. );
#216 = ORIENTED_EDGE( '', *, *, #299, .T. );
#217 = ORIENTED_EDGE( '', *, *, #285, .T. );
#218 = ORIENTED_EDGE( '', *, *, #300, .F. );
#219 = ORIENTED_EDGE( '', *, *, #301, .T. );
#220 = ORIENTED_EDGE( '', *, *, #296, .T. );
#221 = CARTESIAN_POINT( '', ( 3.30643715532042E-015, 0.000000000000000, 0.000000000000000 ) );
#222 = DIRECTION( '', ( 0.000000000000000, 0.000000000000000, -1.00000000000000 ) );
#223 = DIRECTION( '', ( -1.00000000000000, 0.000000000000000, 0.000000000000000 ) );
#224 = ORIENTED_EDGE( '', *, *, #279, .F. );
#225 = ORIENTED_EDGE( '', *, *, #297, .F. );
#226 = ORIENTED_EDGE( '', *, *, #301, .F. );
#227 = ORIENTED_EDGE( '', *, *, #302, .F. );
#228 = CARTESIAN_POINT( '', ( -6.49999999999795, 81.4469875192645, 15.0000000000000 ) );
#229 = DIRECTION( '', ( -1.03289218862797E-013, -1.00000000000000, 0.000000000000000 ) );
#230 = DIRECTION( '', ( 1.00000000000000, -1.03289218862797E-013, 0.000000000000000 ) );
#231 = ORIENTED_EDGE( '', *, *, #303, .T. );
#232 = ORIENTED_EDGE( '', *, *, #300, .T. );
#233 = ORIENTED_EDGE( '', *, *, #284, .F. );
#234 = ORIENTED_EDGE( '', *, *, #280, .F. );
#235 = ORIENTED_EDGE( '', *, *, #302, .T. );
#236 = CARTESIAN_POINT( '', ( -6.49999999999795, 81.4469875192645, 15.0000000000000 ) );
#237 = DIRECTION( '', ( -1.00000000000000, 1.03289218862797E-013, -5.78241158658936E-017 ) );
#238 = DIRECTION( '', ( -1.03289218862797E-013, -1.00000000000000, 0.000000000000000 ) );
#239 = ORIENTED_EDGE( '', *, *, #304, .F. );
#240 = ORIENTED_EDGE( '', *, *, #305, .F. );
#241 = ORIENTED_EDGE( '', *, *, #306, .T. );
#242 = ORIENTED_EDGE( '', *, *, #286, .F. );
#243 = ORIENTED_EDGE( '', *, *, #299, .F. );
#244 = ORIENTED_EDGE( '', *, *, #307, .F. );
#245 = ORIENTED_EDGE( '', *, *, #282, .T. );
#246 = CARTESIAN_POINT( '', ( 6.50000000000566, 116.446987519263, 0.000000000000000 ) );
#247 = DIRECTION( '', ( -1.00000000000000, 1.02695629777827E-013, 0.000000000000000 ) );
#248 = DIRECTION( '', ( -1.02695629777827E-013, -1.00000000000000, 0.000000000000000 ) );
#249 = ORIENTED_EDGE( '', *, *, #290, .F. );
#250 = ORIENTED_EDGE( '', *, *, #304, .T. );
#251 = CARTESIAN_POINT( '', ( -210.964867137640, 110.446987519285, 7.50000000000000 ) );
#252 = DIRECTION( '', ( -1.00000000000000, 1.02695629777827E-013, 0.000000000000000 ) );
#253 = DIRECTION( '', ( 1.02695629777827E-013, 1.00000000000000, 0.000000000000000 ) );
#254 = ORIENTED_EDGE( '', *, *, #307, .T. );
#255 = ORIENTED_EDGE( '', *, *, #298, .T. );
#256 = ORIENTED_EDGE( '', *, *, #293, .T. );
#257 = ORIENTED_EDGE( '', *, *, #283, .T. );
#258 = CARTESIAN_POINT( '', ( 6.50000000000566, 116.446987519263, 0.000000000000000 ) );
#259 = DIRECTION( '', ( 1.02695629777827E-013, 1.00000000000000, 0.000000000000000 ) );
#260 = DIRECTION( '', ( -1.00000000000000, 1.02695629777827E-013, 0.000000000000000 ) );
#261 = ORIENTED_EDGE( '', *, *, #292, .F. );
#262 = ORIENTED_EDGE( '', *, *, #306, .F. );
#263 = CARTESIAN_POINT( '', ( -6.50000000001158, 71.4469875192645, 7.50000000000000 ) );
#264 = DIRECTION( '', ( -1.00000000000000, 1.03289218862797E-013, 0.000000000000000 ) );
#265 = DIRECTION( '', ( -1.03289218862797E-013, -1.00000000000000, 0.000000000000000 ) );
#266 = ORIENTED_EDGE( '', *, *, #295, .T. );
#267 = ORIENTED_EDGE( '', *, *, #303, .F. );
#268 = CARTESIAN_POINT( '', ( -6.50000000001158, 71.4469875192645, 7.50000000000000 ) );
#269 = DIRECTION( '', ( -1.00000000000000, 1.03289218862797E-013, 0.000000000000000 ) );
#270 = DIRECTION( '', ( -1.03289218862797E-013, -1.00000000000000, 0.000000000000000 ) );
#271 = ORIENTED_EDGE( '', *, *, #291, .F. );
#272 = ORIENTED_EDGE( '', *, *, #305, .T. );
#273 = CARTESIAN_POINT( '', ( -210.964867137642, 87.4469875192855, 7.50000000000000 ) );
#274 = DIRECTION( '', ( -1.00000000000000, 1.02695629777827E-013, 0.000000000000000 ) );
#275 = DIRECTION( '', ( 1.02695629777827E-013, 1.00000000000000, 0.000000000000000 ) );
#276 = EDGE_CURVE( '', #308, #309, #310, .T. );
#277 = EDGE_CURVE( '', #309, #311, #312, .T. );
#278 = EDGE_CURVE( '', #313, #311, #314, .T. );
#279 = EDGE_CURVE( '', #313, #315, #316, .T. );
#280 = EDGE_CURVE( '', #315, #317, #318, .T. );
#281 = EDGE_CURVE( '', #319, #317, #320, .T. );
#282 = EDGE_CURVE( '', #321, #319, #322, .T. );
#283 = EDGE_CURVE( '', #308, #321, #323, .T. );
#284 = EDGE_CURVE( '', #317, #324, #325, .T. );
#285 = EDGE_CURVE( '', #326, #324, #327, .T. );
#286 = EDGE_CURVE( '', #326, #319, #328, .F. );
#287 = EDGE_CURVE( '', #329, #330, #331, .T. );
#288 = EDGE_CURVE( '', #311, #330, #332, .F. );
#289 = EDGE_CURVE( '', #309, #329, #333, .F. );
#290 = EDGE_CURVE( '', #334, #334, #335, .T. );
#291 = EDGE_CURVE( '', #336, #336, #337, .T. );
#292 = EDGE_CURVE( '', #338, #338, #339, .T. );
#293 = EDGE_CURVE( '', #340, #308, #341, .T. );
#294 = EDGE_CURVE( '', #340, #329, #342, .T. );
#295 = EDGE_CURVE( '', #343, #343, #344, .T. );
#296 = EDGE_CURVE( '', #345, #330, #346, .T. );
#297 = EDGE_CURVE( '', #345, #313, #347, .T. );
#298 = EDGE_CURVE( '', #348, #340, #349, .T. );
#299 = EDGE_CURVE( '', #348, #326, #350, .T. );
#300 = EDGE_CURVE( '', #351, #324, #352, .T. );
#301 = EDGE_CURVE( '', #351, #345, #353, .T. );
#302 = EDGE_CURVE( '', #315, #351, #354, .T. );
#303 = EDGE_CURVE( '', #355, #355, #356, .T. );
#304 = EDGE_CURVE( '', #357, #357, #358, .T. );
#305 = EDGE_CURVE( '', #359, #359, #360, .T. );
#306 = EDGE_CURVE( '', #361, #361, #362, .T. );
#307 = EDGE_CURVE( '', #321, #348, #363, .T. );
#308 = VERTEX_POINT( '', #364 );
#309 = VERTEX_POINT( '', #365 );
#310 = LINE( '', #366, #367 );
#311 = VERTEX_POINT( '', #368 );
#312 = CIRCLE( '', #369, 56.8200000000000 );
#313 = VERTEX_POINT( '', #370 );
#314 = LINE( '', #371, #372 );
#315 = VERTEX_POINT( '', #373 );
#316 = LINE( '', #374, #375 );
#317 = VERTEX_POINT( '', #376 );
#318 = LINE( '', #377, #378 );
#319 = VERTEX_POINT( '', #379 );
#320 = CIRCLE( '', #380, 61.8200000000000 );
#321 = VERTEX_POINT( '', #381 );
#322 = LINE( '', #382, #383 );
#323 = LINE( '', #384, #385 );
#324 = VERTEX_POINT( '', #386 );
#325 = LINE( '', #387, #388 );
#326 = VERTEX_POINT( '', #389 );
#327 = CIRCLE( '', #390, 61.8200000000000 );
#328 = LINE( '', #391, #392 );
#329 = VERTEX_POINT( '', #393 );
#330 = VERTEX_POINT( '', #394 );
#331 = CIRCLE( '', #395, 56.8200000000000 );
#332 = LINE( '', #396, #397 );
#333 = LINE( '', #398, #399 );
#334 = VERTEX_POINT( '', #400 );
#335 = CIRCLE( '', #401, 2.50000000000000 );
#336 = VERTEX_POINT( '', #402 );
#337 = CIRCLE( '', #403, 2.50000000000000 );
#338 = VERTEX_POINT( '', #404 );
#339 = CIRCLE( '', #405, 2.50000000000000 );
#340 = VERTEX_POINT( '', #406 );
#341 = LINE( '', #407, #408 );
#342 = LINE( '', #409, #410 );
#343 = VERTEX_POINT( '', #411 );
#344 = CIRCLE( '', #412, 2.50000000000000 );
#345 = VERTEX_POINT( '', #413 );
#346 = LINE( '', #414, #415 );
#347 = LINE( '', #416, #417 );
#348 = VERTEX_POINT( '', #418 );
#349 = LINE( '', #419, #420 );
#350 = LINE( '', #421, #422 );
#351 = VERTEX_POINT( '', #423 );
#352 = LINE( '', #424, #425 );
#353 = LINE( '', #426, #427 );
#354 = LINE( '', #428, #429 );
#355 = VERTEX_POINT( '', #430 );
#356 = CIRCLE( '', #431, 2.50000000000000 );
#357 = VERTEX_POINT( '', #432 );
#358 = CIRCLE( '', #433, 2.50000000000000 );
#359 = VERTEX_POINT( '', #434 );
#360 = CIRCLE( '', #435, 2.50000000000000 );
#361 = VERTEX_POINT( '', #436 );
#362 = CIRCLE( '', #437, 2.50000000000000 );
#363 = LINE( '', #438, #439 );
#364 = CARTESIAN_POINT( '', ( 1.49999999999314, 116.446987519264, 15.0000000000000 ) );
#365 = CARTESIAN_POINT( '', ( 1.49999999998701, 56.8001971827567, 15.0000000000000 ) );
#366 = CARTESIAN_POINT( '', ( 1.49999999999314, 116.446987519264, 15.0000000000000 ) );
#367 = VECTOR( '', #440, 1000.00000000000 );
#368 = CARTESIAN_POINT( '', ( -1.50000000000049, 56.8001971827563, 15.0000000000000 ) );
#369 = AXIS2_PLACEMENT_3D( '', #441, #442, #443 );
#370 = CARTESIAN_POINT( '', ( -1.49999999999795, 81.4469875192640, 15.0000000000000 ) );
#371 = CARTESIAN_POINT( '', ( -1.49999999999795, 81.4469875192640, 15.0000000000000 ) );
#372 = VECTOR( '', #444, 1000.00000000000 );
#373 = CARTESIAN_POINT( '', ( -6.49999999999795, 81.4469875192645, 15.0000000000000 ) );
#374 = CARTESIAN_POINT( '', ( -6.50000000001055, 81.4469875192645, 15.0000000000000 ) );
#375 = VECTOR( '', #445, 1000.00000000000 );
#376 = CARTESIAN_POINT( '', ( -6.50000000000000, 61.4773324079697, 15.0000000000000 ) );
#377 = CARTESIAN_POINT( '', ( -6.49999999999795, 81.4469875192645, 15.0000000000000 ) );
#378 = VECTOR( '', #446, 1000.00000000000 );
#379 = CARTESIAN_POINT( '', ( 6.50000000000000, 61.4773324079697, 15.0000000000000 ) );
#380 = AXIS2_PLACEMENT_3D( '', #447, #448, #449 );
#381 = CARTESIAN_POINT( '', ( 6.50000000000566, 116.446987519263, 15.0000000000000 ) );
#382 = CARTESIAN_POINT( '', ( 6.50000000000566, 116.446987519263, 15.0000000000000 ) );
#383 = VECTOR( '', #450, 1000.00000000000 );
#384 = CARTESIAN_POINT( '', ( 6.50000000000566, 116.446987519263, 15.0000000000000 ) );
#385 = VECTOR( '', #451, 1000.00000000000 );
#386 = CARTESIAN_POINT( '', ( -6.50000000000000, 61.4773324079697, 0.000000000000000 ) );
#387 = CARTESIAN_POINT( '', ( -6.50000000000000, 61.4773324079697, 15.0000000000000 ) );
#388 = VECTOR( '', #452, 1000.00000000000 );
#389 = CARTESIAN_POINT( '', ( 6.50000000000000, 61.4773324079697, 0.000000000000000 ) );
#390 = AXIS2_PLACEMENT_3D( '', #453, #454, #455 );
#391 = CARTESIAN_POINT( '', ( 6.50000000000000, 61.4773324079697, 15.0000000000000 ) );
#392 = VECTOR( '', #456, 1000.00000000000 );
#393 = CARTESIAN_POINT( '', ( 1.49999999998701, 56.8001971827567, 0.000000000000000 ) );
#394 = CARTESIAN_POINT( '', ( -1.50000000000049, 56.8001971827563, 0.000000000000000 ) );
#395 = AXIS2_PLACEMENT_3D( '', #457, #458, #459 );
#396 = CARTESIAN_POINT( '', ( -1.50000000000049, 56.8001971827563, -202.464867137644 ) );
#397 = VECTOR( '', #460, 1000.00000000000 );
#398 = CARTESIAN_POINT( '', ( 1.49999999998701, 56.8001971827567, -202.464867137644 ) );
#399 = VECTOR( '', #461, 1000.00000000000 );
#400 = CARTESIAN_POINT( '', ( 1.49999999999279, 112.946987519264, 7.50000000000000 ) );
#401 = AXIS2_PLACEMENT_3D( '', #462, #463, #464 );
#402 = CARTESIAN_POINT( '', ( 1.49999999999043, 89.9469875192637, 7.50000000000000 ) );
#403 = AXIS2_PLACEMENT_3D( '', #465, #466, #467 );
#404 = CARTESIAN_POINT( '', ( 1.49999999998878, 73.9469875192637, 7.50000000000000 ) );
#405 = AXIS2_PLACEMENT_3D( '', #468, #469, #470 );
#406 = CARTESIAN_POINT( '', ( 1.49999999999314, 116.446987519264, -8.67361737988404E-016 ) );
#407 = CARTESIAN_POINT( '', ( 1.49999999999314, 116.446987519264, -8.67361737988404E-016 ) );
#408 = VECTOR( '', #471, 1000.00000000000 );
#409 = CARTESIAN_POINT( '', ( 1.49999999999314, 116.446987519264, -8.67361737988404E-016 ) );
#410 = VECTOR( '', #472, 1000.00000000000 );
#411 = CARTESIAN_POINT( '', ( -1.49999999999872, 73.9469875192640, 7.50000000000000 ) );
#412 = AXIS2_PLACEMENT_3D( '', #473, #474, #475 );
#413 = CARTESIAN_POINT( '', ( -1.49999999999795, 81.4469875192640, 0.000000000000000 ) );
#414 = CARTESIAN_POINT( '', ( -1.49999999999795, 81.4469875192640, 0.000000000000000 ) );
#415 = VECTOR( '', #476, 1000.00000000000 );
#416 = CARTESIAN_POINT( '', ( -1.49999999999795, 81.4469875192640, 0.000000000000000 ) );
#417 = VECTOR( '', #477, 1000.00000000000 );
#418 = CARTESIAN_POINT( '', ( 6.50000000000566, 116.446987519263, 0.000000000000000 ) );
#419 = CARTESIAN_POINT( '', ( 6.50000000000566, 116.446987519263, 0.000000000000000 ) );
#420 = VECTOR( '', #478, 1000.00000000000 );
#421 = CARTESIAN_POINT( '', ( 6.50000000000566, 116.446987519263, 0.000000000000000 ) );
#422 = VECTOR( '', #479, 1000.00000000000 );
#423 = CARTESIAN_POINT( '', ( -6.49999999999795, 81.4469875192645, 0.000000000000000 ) );
#424 = CARTESIAN_POINT( '', ( -6.49999999999795, 81.4469875192645, 0.000000000000000 ) );
#425 = VECTOR( '', #480, 1000.00000000000 );
#426 = CARTESIAN_POINT( '', ( -6.49999999999795, 81.4469875192645, 0.000000000000000 ) );
#427 = VECTOR( '', #481, 1000.00000000000 );
#428 = CARTESIAN_POINT( '', ( -6.49999999999795, 81.4469875192645, 15.0000000000000 ) );
#429 = VECTOR( '', #482, 1000.00000000000 );
#430 = CARTESIAN_POINT( '', ( -6.50000000001184, 68.9469875192645, 7.50000000000000 ) );
#431 = AXIS2_PLACEMENT_3D( '', #483, #484, #485 );
#432 = CARTESIAN_POINT( '', ( 6.50000000000504, 110.446987519263, 5.00000000000000 ) );
#433 = AXIS2_PLACEMENT_3D( '', #486, #487, #488 );
#434 = CARTESIAN_POINT( '', ( 6.50000000000268, 87.4469875192631, 5.00000000000000 ) );
#435 = AXIS2_PLACEMENT_3D( '', #489, #490, #491 );
#436 = CARTESIAN_POINT( '', ( 6.50000000000078, 68.9469875192631, 7.50000000000000 ) );
#437 = AXIS2_PLACEMENT_3D( '', #492, #493, #494 );
#438 = CARTESIAN_POINT( '', ( 6.50000000000566, 116.446987519263, 0.000000000000000 ) );
#439 = VECTOR( '', #495, 1000.00000000000 );
#440 = DIRECTION( '', ( -1.02695629777827E-013, -1.00000000000000, 0.000000000000000 ) );
#441 = CARTESIAN_POINT( '', ( 0.000000000000000, 0.000000000000000, 15.0000000000000 ) );
#442 = DIRECTION( '', ( 0.000000000000000, 0.000000000000000, -1.00000000000000 ) );
#443 = DIRECTION( '', ( 1.00000000000000, 0.000000000000000, 0.000000000000000 ) );
#444 = DIRECTION( '', ( -1.03289218862797E-013, -1.00000000000000, 0.000000000000000 ) );
#445 = DIRECTION( '', ( -1.00000000000000, 1.03289218862797E-013, 3.46944695194487E-016 ) );
#446 = DIRECTION( '', ( -1.03289218862797E-013, -1.00000000000000, 0.000000000000000 ) );
#447 = CARTESIAN_POINT( '', ( 3.30643715532042E-015, 0.000000000000000, 15.0000000000000 ) );
#448 = DIRECTION( '', ( 0.000000000000000, 0.000000000000000, -1.00000000000000 ) );
#449 = DIRECTION( '', ( 1.00000000000000, 0.000000000000000, 0.000000000000000 ) );
#450 = DIRECTION( '', ( -1.02695629777827E-013, -1.00000000000000, 0.000000000000000 ) );
#451 = DIRECTION( '', ( 1.00000000000000, -1.02695629777827E-013, -2.08166817116695E-015 ) );
#452 = DIRECTION( '', ( 0.000000000000000, 0.000000000000000, -1.00000000000000 ) );
#453 = CARTESIAN_POINT( '', ( 3.30643715532042E-015, 0.000000000000000, 0.000000000000000 ) );
#454 = DIRECTION( '', ( 0.000000000000000, 0.000000000000000, -1.00000000000000 ) );
#455 = DIRECTION( '', ( 1.00000000000000, 0.000000000000000, 0.000000000000000 ) );
#456 = DIRECTION( '', ( 0.000000000000000, 0.000000000000000, -1.00000000000000 ) );
#457 = CARTESIAN_POINT( '', ( 0.000000000000000, 0.000000000000000, 0.000000000000000 ) );
#458 = DIRECTION( '', ( 0.000000000000000, 0.000000000000000, -1.00000000000000 ) );
#459 = DIRECTION( '', ( 1.00000000000000, 0.000000000000000, 0.000000000000000 ) );
#460 = DIRECTION( '', ( 0.000000000000000, 0.000000000000000, 1.00000000000000 ) );
#461 = DIRECTION( '', ( 0.000000000000000, 0.000000000000000, 1.00000000000000 ) );
#462 = CARTESIAN_POINT( '', ( 1.49999999999253, 110.446987519264, 7.50000000000000 ) );
#463 = DIRECTION( '', ( 1.00000000000000, -1.02695629777827E-013, 0.000000000000000 ) );
#464 = DIRECTION( '', ( 1.02695629777827E-013, 1.00000000000000, 0.000000000000000 ) );
#465 = CARTESIAN_POINT( '', ( 1.49999999999018, 87.4469875192637, 7.50000000000000 ) );
#466 = DIRECTION( '', ( 1.00000000000000, -1.02695629777827E-013, 0.000000000000000 ) );
#467 = DIRECTION( '', ( 1.02695629777827E-013, 1.00000000000000, 0.000000000000000 ) );
#468 = CARTESIAN_POINT( '', ( 1.49999999998852, 71.4469875192637, 7.50000000000000 ) );
#469 = DIRECTION( '', ( 1.00000000000000, -1.02695629777827E-013, 0.000000000000000 ) );
#470 = DIRECTION( '', ( 1.02695629777827E-013, 1.00000000000000, 0.000000000000000 ) );
#471 = DIRECTION( '', ( 0.000000000000000, 0.000000000000000, 1.00000000000000 ) );
#472 = DIRECTION( '', ( -1.02695629777827E-013, -1.00000000000000, 0.000000000000000 ) );
#473 = CARTESIAN_POINT( '', ( -1.49999999999898, 71.4469875192640, 7.50000000000000 ) );
#474 = DIRECTION( '', ( 1.00000000000000, -1.03289218862797E-013, 0.000000000000000 ) );
#475 = DIRECTION( '', ( 1.03289218862797E-013, 1.00000000000000, 0.000000000000000 ) );
#476 = DIRECTION( '', ( -1.03289218862797E-013, -1.00000000000000, 0.000000000000000 ) );
#477 = DIRECTION( '', ( 0.000000000000000, 0.000000000000000, 1.00000000000000 ) );
#478 = DIRECTION( '', ( -1.00000000000000, 1.02695629777827E-013, -1.73472347597246E-016 ) );
#479 = DIRECTION( '', ( -1.02695629777827E-013, -1.00000000000000, 0.000000000000000 ) );
#480 = DIRECTION( '', ( -1.03289218862797E-013, -1.00000000000000, 0.000000000000000 ) );
#481 = DIRECTION( '', ( 1.00000000000000, -1.03289218862797E-013, 0.000000000000000 ) );
#482 = DIRECTION( '', ( 5.78241158658936E-017, -5.97260775922004E-030, -1.00000000000000 ) );
#483 = CARTESIAN_POINT( '', ( -6.50000000001158, 71.4469875192645, 7.50000000000000 ) );
#484 = DIRECTION( '', ( 1.00000000000000, -1.03289218862797E-013, 0.000000000000000 ) );
#485 = DIRECTION( '', ( -1.03289218862797E-013, -1.00000000000000, 0.000000000000000 ) );
#486 = CARTESIAN_POINT( '', ( 6.50000000000504, 110.446987519263, 7.50000000000000 ) );
#487 = DIRECTION( '', ( 1.00000000000000, -1.02695629777827E-013, 0.000000000000000 ) );
#488 = DIRECTION( '', ( 0.000000000000000, 0.000000000000000, -1.00000000000000 ) );
#489 = CARTESIAN_POINT( '', ( 6.50000000000268, 87.4469875192631, 7.50000000000000 ) );
#490 = DIRECTION( '', ( 1.00000000000000, -1.02695629777827E-013, 0.000000000000000 ) );
#491 = DIRECTION( '', ( 0.000000000000000, 0.000000000000000, -1.00000000000000 ) );
#492 = CARTESIAN_POINT( '', ( 6.50000000000104, 71.4469875192631, 7.50000000000000 ) );
#493 = DIRECTION( '', ( -1.00000000000000, 1.02695629777827E-013, 0.000000000000000 ) );
#494 = DIRECTION( '', ( -1.02695629777827E-013, -1.00000000000000, 0.000000000000000 ) );
#495 = DIRECTION( '', ( 0.000000000000000, 0.000000000000000, -1.00000000000000 ) );
ENDSEC;
END-ISO-10303-21;
